ISO-10303-21;
HEADER;
FILE_DESCRIPTION (( 'STEP AP203' ),
    '1' );
FILE_NAME ('MHWP-12.7-532.STEP',
    '2020-12-22T09:25:09',
    ( '' ),
    ( '' ),
    'SwSTEP 2.0',
    'SolidWorks 2020',
    '' );
FILE_SCHEMA (( 'CONFIG_CONTROL_DESIGN' ));
ENDSEC;

DATA;
#1 = APPROVAL_DATE_TIME ( #128, #68 ) ;
#2 = CC_DESIGN_SECURITY_CLASSIFICATION ( #161, ( #36 ) ) ;
#3 = PERSON_AND_ORGANIZATION_ROLE ( 'creator' ) ;
#4 = ADVANCED_BREP_SHAPE_REPRESENTATION ( 'MHWP-12.7-532', ( #101, #50 ), #82 ) ;
#5 = SECURITY_CLASSIFICATION_LEVEL ( 'unclassified' ) ;
#6 = DIRECTION ( 'NONE',  ( -1.000000000000000000, -0.000000000000000000, -0.000000000000000000 ) ) ;
#7 = AXIS2_PLACEMENT_3D ( 'NONE', #18, #170, #149 ) ;
#8 = EDGE_LOOP ( 'NONE', ( #60, #166 ) ) ;
#9 = EDGE_CURVE ( 'NONE', #164, #102, #172, .T. ) ;
#10 = DIRECTION ( 'NONE',  ( 0.000000000000000000, 0.000000000000000000, 1.000000000000000000 ) ) ;
#11 = DIRECTION ( 'NONE',  ( -1.000000000000000000, -0.000000000000000000, -0.000000000000000000 ) ) ;
#12 = PERSON_AND_ORGANIZATION ( #71, #119 ) ;
#13 = VECTOR ( 'NONE', #83, 1000.000000000000000 ) ;
#14 = DIRECTION ( 'NONE',  ( 0.000000000000000000, 0.000000000000000000, 1.000000000000000000 ) ) ;
#15 = CLOSED_SHELL ( 'NONE', ( #138, #45, #157, #87 ) ) ;
#16 = CALENDAR_DATE ( 2020, 22, 12 ) ;
#17 = CARTESIAN_POINT ( 'NONE',  ( 0.000000000000000000, 0.000000000000000000, 0.000000000000000000 ) ) ;
#18 = CARTESIAN_POINT ( 'NONE',  ( -2.051283388571816641E-16, 6.349999999999999645, 0.000000000000000000 ) ) ;
#19 = APPROVAL_PERSON_ORGANIZATION ( #52, #68, #154 ) ;
#20 = CARTESIAN_POINT ( 'NONE',  ( 1.999999999999999112, 0.000000000000000000, 6.349999999999999645 ) ) ;
#21 = FACE_OUTER_BOUND ( 'NONE', #8, .T. ) ;
#22 = CARTESIAN_POINT ( 'NONE',  ( 0.000000000000000000, 0.000000000000000000, 6.349999999999999645 ) ) ;
#23 = PERSON_AND_ORGANIZATION_ROLE ( 'creator' ) ;
#24 = FACE_OUTER_BOUND ( 'NONE', #165, .T. ) ;
#25 = CC_DESIGN_PERSON_AND_ORGANIZATION_ASSIGNMENT ( #174, #99, ( #36 ) ) ;
#26 = DATE_TIME_ROLE ( 'classification_date' ) ;
#27 = CC_DESIGN_PERSON_AND_ORGANIZATION_ASSIGNMENT ( #90, #23, ( #142 ) ) ;
#28 = CARTESIAN_POINT ( 'NONE',  ( 0.000000000000000000, 7.776507174585692163E-16, -6.349999999999999645 ) ) ;
#29 = ORIENTED_EDGE ( 'NONE', *, *, #167, .T. ) ;
#30 = FACE_OUTER_BOUND ( 'NONE', #117, .T. ) ;
#31 = APPLICATION_CONTEXT ( 'configuration controlled 3d designs of mechanical parts and assemblies' ) ;
#32 = CARTESIAN_POINT ( 'NONE',  ( -4.102566777143633281E-16, 0.000000000000000000, 6.349999999999999645 ) ) ;
#33 = CALENDAR_DATE ( 2020, 22, 12 ) ;
#34 = PRODUCT_RELATED_PRODUCT_CATEGORY ( 'detail', '', ( #135 ) ) ;
#35 = AXIS2_PLACEMENT_3D ( 'NONE', #17, #6, #56 ) ;
#36 = PRODUCT_DEFINITION_FORMATION_WITH_SPECIFIED_SOURCE ( 'ANY', '', #135, .NOT_KNOWN. ) ;
#37 = APPROVAL_DATE_TIME ( #77, #105 ) ;
#38 = PRODUCT_DEFINITION_SHAPE ( 'NONE', 'NONE',  #142 ) ;
#39 = APPLICATION_PROTOCOL_DEFINITION ( 'international standard', 'config_control_design', 1994, #31 ) ;
#40 = DATE_AND_TIME ( #69, #132 ) ;
#41 = PERSON_AND_ORGANIZATION ( #71, #119 ) ;
#42 = AXIS2_PLACEMENT_3D ( 'NONE', #136, #125, #168 ) ;
#43 = ORIENTED_EDGE ( 'NONE', *, *, #79, .T. ) ;
#44 = CARTESIAN_POINT ( 'NONE',  ( 1.999999999999999112, 7.776507174585692163E-16, -6.349999999999999645 ) ) ;
#45 = ADVANCED_FACE ( 'NONE', ( #155 ), #81, .T. ) ;
#46 = VERTEX_POINT ( 'NONE', #44 ) ;
#47 = CARTESIAN_POINT ( 'NONE',  ( 1.999999999999999556, 6.349999999999999645, 0.000000000000000000 ) ) ;
#48 = APPROVAL_STATUS ( 'not_yet_approved' ) ;
#49 = LINE ( 'NONE', #22, #118 ) ;
#50 = AXIS2_PLACEMENT_3D ( 'NONE', #92, #111, #122 ) ;
#51 = PERSON_AND_ORGANIZATION_ROLE ( 'classification_officer' ) ;
#52 = PERSON_AND_ORGANIZATION ( #71, #119 ) ;
#53 = SHAPE_DEFINITION_REPRESENTATION ( #38, #4 ) ;
#54 = COORDINATED_UNIVERSAL_TIME_OFFSET ( 8, 0, .AHEAD. ) ;
#55 = APPROVAL ( #114, 'UNSPECIFIED' ) ;
#56 = DIRECTION ( 'NONE',  ( 0.000000000000000000, 0.000000000000000000, 1.000000000000000000 ) ) ;
#57 = ORIENTED_EDGE ( 'NONE', *, *, #175, .T. ) ;
#58 = AXIS2_PLACEMENT_3D ( 'NONE', #131, #146, #134 ) ;
#59 = ORIENTED_EDGE ( 'NONE', *, *, #93, .F. ) ;
#60 = ORIENTED_EDGE ( 'NONE', *, *, #167, .F. ) ;
#61 = PLANE ( 'NONE',  #113 ) ;
#62 = APPLICATION_PROTOCOL_DEFINITION ( 'international standard', 'config_control_design', 1994, #159 ) ;
#63 = PERSON_AND_ORGANIZATION_ROLE ( 'design_owner' ) ;
#64 = CARTESIAN_POINT ( 'NONE',  ( 0.000000000000000000, 0.000000000000000000, 0.000000000000000000 ) ) ;
#65 = LOCAL_TIME ( 17, 25, 9.000000000000000000, #127 ) ;
#66 = APPROVAL_ROLE ( '' ) ;
#67 = DATE_TIME_ROLE ( 'creation_date' ) ;
#68 = APPROVAL ( #96, 'UNSPECIFIED' ) ;
#69 = CALENDAR_DATE ( 2020, 22, 12 ) ;
#70 = CC_DESIGN_DATE_AND_TIME_ASSIGNMENT ( #130, #67, ( #142 ) ) ;
#71 = PERSON ( 'UNSPECIFIED', 'UNSPECIFIED', 'UNSPECIFIED', ('UNSPECIFIED'), ('UNSPECIFIED'), ('UNSPECIFIED') ) ;
#72 = ORIENTED_EDGE ( 'NONE', *, *, #9, .T. ) ;
#73 = ORIENTED_EDGE ( 'NONE', *, *, #93, .T. ) ;
#74 = DIRECTION ( 'NONE',  ( -1.000000000000000000, -0.000000000000000000, -0.000000000000000000 ) ) ;
#75 = CIRCLE ( 'NONE', #103, 6.349999999999999645 ) ;
#76 =( NAMED_UNIT ( * ) SI_UNIT ( $, .STERADIAN. ) SOLID_ANGLE_UNIT ( ) );
#77 = DATE_AND_TIME ( #33, #153 ) ;
#78 = PERSON_AND_ORGANIZATION ( #71, #119 ) ;
#79 = EDGE_CURVE ( 'NONE', #46, #164, #158, .T. ) ;
#80 = DATE_AND_TIME ( #16, #98 ) ;
#81 = CYLINDRICAL_SURFACE ( 'NONE', #35, 6.349999999999999645 ) ;
#82 =( GEOMETRIC_REPRESENTATION_CONTEXT ( 3 ) GLOBAL_UNCERTAINTY_ASSIGNED_CONTEXT ( ( #116 ) ) GLOBAL_UNIT_ASSIGNED_CONTEXT ( ( #171, #109, #76 ) ) REPRESENTATION_CONTEXT ( 'NONE', 'WORKASPACE' ) );
#83 = DIRECTION ( 'NONE',  ( -1.000000000000000000, -0.000000000000000000, -0.000000000000000000 ) ) ;
#84 = ORIENTED_EDGE ( 'NONE', *, *, #9, .F. ) ;
#85 = EDGE_LOOP ( 'NONE', ( #133, #57, #86, #84 ) ) ;
#86 = ORIENTED_EDGE ( 'NONE', *, *, #147, .T. ) ;
#87 = ADVANCED_FACE ( 'NONE', ( #30 ), #145, .F. ) ;
#88 = DIRECTION ( 'NONE',  ( -0.000000000000000000, 0.000000000000000000, 1.000000000000000000 ) ) ;
#89 = COORDINATED_UNIVERSAL_TIME_OFFSET ( 8, 0, .AHEAD. ) ;
#90 = PERSON_AND_ORGANIZATION ( #71, #119 ) ;
#91 = APPROVAL_PERSON_ORGANIZATION ( #78, #105, #94 ) ;
#92 = CARTESIAN_POINT ( 'NONE',  ( 0.000000000000000000, 0.000000000000000000, 0.000000000000000000 ) ) ;
#93 = EDGE_CURVE ( 'NONE', #102, #164, #121, .T. ) ;
#94 = APPROVAL_ROLE ( '' ) ;
#95 = APPROVAL_PERSON_ORGANIZATION ( #129, #55, #66 ) ;
#96 = APPROVAL_STATUS ( 'not_yet_approved' ) ;
#97 = AXIS2_PLACEMENT_3D ( 'NONE', #64, #74, #10 ) ;
#98 = LOCAL_TIME ( 17, 25, 9.000000000000000000, #54 ) ;
#99 = PERSON_AND_ORGANIZATION_ROLE ( 'design_supplier' ) ;
#100 = VERTEX_POINT ( 'NONE', #20 ) ;
#101 = MANIFOLD_SOLID_BREP ( 'Ðý×', #15 ) ;
#102 = VERTEX_POINT ( 'NONE', #32 ) ;
#103 = AXIS2_PLACEMENT_3D ( 'NONE', #150, #139, #106 ) ;
#104 = CC_DESIGN_PERSON_AND_ORGANIZATION_ASSIGNMENT ( #12, #63, ( #135 ) ) ;
#105 = APPROVAL ( #48, 'UNSPECIFIED' ) ;
#106 = DIRECTION ( 'NONE',  ( 0.000000000000000000, 0.000000000000000000, 1.000000000000000000 ) ) ;
#107 = COORDINATED_UNIVERSAL_TIME_OFFSET ( 8, 0, .AHEAD. ) ;
#108 = AXIS2_PLACEMENT_3D ( 'NONE', #124, #160, #14 ) ;
#109 =( NAMED_UNIT ( * ) PLANE_ANGLE_UNIT ( ) SI_UNIT ( $, .RADIAN. ) );
#110 = LOCAL_TIME ( 17, 25, 9.000000000000000000, #89 ) ;
#111 = DIRECTION ( 'NONE',  ( 0.000000000000000000, 0.000000000000000000, 1.000000000000000000 ) ) ;
#112 = CC_DESIGN_DATE_AND_TIME_ASSIGNMENT ( #80, #26, ( #161 ) ) ;
#113 = AXIS2_PLACEMENT_3D ( 'NONE', #47, #148, #88 ) ;
#114 = APPROVAL_STATUS ( 'not_yet_approved' ) ;
#115 = CALENDAR_DATE ( 2020, 22, 12 ) ;
#116 = UNCERTAINTY_MEASURE_WITH_UNIT (LENGTH_MEASURE( 1.000000000000000082E-05 ), #171, 'distance_accuracy_value', 'NONE');
#117 = EDGE_LOOP ( 'NONE', ( #73, #72 ) ) ;
#118 = VECTOR ( 'NONE', #11, 1000.000000000000000 ) ;
#119 = ORGANIZATION ( 'UNSPECIFIED', 'UNSPECIFIED', '' ) ;
#120 = ORIENTED_EDGE ( 'NONE', *, *, #147, .F. ) ;
#121 = CIRCLE ( 'NONE', #42, 6.349999999999999645 ) ;
#122 = DIRECTION ( 'NONE',  ( 1.000000000000000000, 0.000000000000000000, 0.000000000000000000 ) ) ;
#123 = CARTESIAN_POINT ( 'NONE',  ( -4.102566777143633281E-16, 7.776507174585692163E-16, -6.349999999999999645 ) ) ;
#124 = CARTESIAN_POINT ( 'NONE',  ( 1.999999999999999112, 0.000000000000000000, 0.000000000000000000 ) ) ;
#125 = DIRECTION ( 'NONE',  ( -1.000000000000000000, -0.000000000000000000, -0.000000000000000000 ) ) ;
#126 = CC_DESIGN_APPROVAL ( #68, ( #161 ) ) ;
#127 = COORDINATED_UNIVERSAL_TIME_OFFSET ( 8, 0, .AHEAD. ) ;
#128 = DATE_AND_TIME ( #115, #65 ) ;
#129 = PERSON_AND_ORGANIZATION ( #71, #119 ) ;
#130 = DATE_AND_TIME ( #140, #110 ) ;
#131 = CARTESIAN_POINT ( 'NONE',  ( -4.102566777143633281E-16, 0.000000000000000000, 0.000000000000000000 ) ) ;
#132 = LOCAL_TIME ( 17, 25, 9.000000000000000000, #151 ) ;
#133 = ORIENTED_EDGE ( 'NONE', *, *, #79, .F. ) ;
#134 = DIRECTION ( 'NONE',  ( 0.000000000000000000, 0.000000000000000000, 1.000000000000000000 ) ) ;
#135 = PRODUCT ( 'MHWP-12.7-532', 'MHWP-12.7-532', '', ( #169 ) ) ;
#136 = CARTESIAN_POINT ( 'NONE',  ( -4.102566777143633281E-16, 0.000000000000000000, 0.000000000000000000 ) ) ;
#137 = CYLINDRICAL_SURFACE ( 'NONE', #97, 6.349999999999999645 ) ;
#138 = ADVANCED_FACE ( 'NONE', ( #24 ), #137, .T. ) ;
#139 = DIRECTION ( 'NONE',  ( -1.000000000000000000, -0.000000000000000000, -0.000000000000000000 ) ) ;
#140 = CALENDAR_DATE ( 2020, 22, 12 ) ;
#141 = CIRCLE ( 'NONE', #108, 6.349999999999999645 ) ;
#142 = PRODUCT_DEFINITION ( 'UNKNOWN', '', #36, #156 ) ;
#143 = CC_DESIGN_PERSON_AND_ORGANIZATION_ASSIGNMENT ( #163, #51, ( #161 ) ) ;
#144 = CC_DESIGN_APPROVAL ( #55, ( #36 ) ) ;
#145 = PLANE ( 'NONE',  #7 ) ;
#146 = DIRECTION ( 'NONE',  ( -1.000000000000000000, -0.000000000000000000, -0.000000000000000000 ) ) ;
#147 = EDGE_CURVE ( 'NONE', #100, #102, #49, .T. ) ;
#148 = DIRECTION ( 'NONE',  ( -1.000000000000000000, 0.000000000000000000, -0.000000000000000000 ) ) ;
#149 = DIRECTION ( 'NONE',  ( 0.000000000000000000, 0.000000000000000000, -1.000000000000000000 ) ) ;
#150 = CARTESIAN_POINT ( 'NONE',  ( 1.999999999999999112, 0.000000000000000000, 0.000000000000000000 ) ) ;
#151 = COORDINATED_UNIVERSAL_TIME_OFFSET ( 8, 0, .AHEAD. ) ;
#152 = CC_DESIGN_PERSON_AND_ORGANIZATION_ASSIGNMENT ( #41, #3, ( #36 ) ) ;
#153 = LOCAL_TIME ( 17, 25, 9.000000000000000000, #107 ) ;
#154 = APPROVAL_ROLE ( '' ) ;
#155 = FACE_OUTER_BOUND ( 'NONE', #85, .T. ) ;
#156 = DESIGN_CONTEXT ( 'detailed design', #31, 'design' ) ;
#157 = ADVANCED_FACE ( 'NONE', ( #21 ), #61, .F. ) ;
#158 = LINE ( 'NONE', #28, #13 ) ;
#159 = APPLICATION_CONTEXT ( 'configuration controlled 3d designs of mechanical parts and assemblies' ) ;
#160 = DIRECTION ( 'NONE',  ( -1.000000000000000000, -0.000000000000000000, -0.000000000000000000 ) ) ;
#161 = SECURITY_CLASSIFICATION ( '', '', #5 ) ;
#162 = APPROVAL_DATE_TIME ( #40, #55 ) ;
#163 = PERSON_AND_ORGANIZATION ( #71, #119 ) ;
#164 = VERTEX_POINT ( 'NONE', #123 ) ;
#165 = EDGE_LOOP ( 'NONE', ( #29, #43, #59, #120 ) ) ;
#166 = ORIENTED_EDGE ( 'NONE', *, *, #175, .F. ) ;
#167 = EDGE_CURVE ( 'NONE', #100, #46, #75, .T. ) ;
#168 = DIRECTION ( 'NONE',  ( 0.000000000000000000, 0.000000000000000000, 1.000000000000000000 ) ) ;
#169 = MECHANICAL_CONTEXT ( 'NONE', #159, 'mechanical' ) ;
#170 = DIRECTION ( 'NONE',  ( 1.000000000000000000, 0.000000000000000000, 0.000000000000000000 ) ) ;
#171 =( LENGTH_UNIT ( ) NAMED_UNIT ( * ) SI_UNIT ( .MILLI., .METRE. ) );
#172 = CIRCLE ( 'NONE', #58, 6.349999999999999645 ) ;
#173 = CC_DESIGN_APPROVAL ( #105, ( #142 ) ) ;
#174 = PERSON_AND_ORGANIZATION ( #71, #119 ) ;
#175 = EDGE_CURVE ( 'NONE', #46, #100, #141, .T. ) ;
ENDSEC;
END-ISO-10303-21;
